P. 1
Cara Belajar Gitar

Cara Belajar Gitar

|Views: 410|Likes:
Published by Hafidz C Utomo

More info:

Published by: Hafidz C Utomo on Feb 26, 2012
Copyright:Attribution Non-commercial

Availability:

Read on Scribd mobile: iPhone, iPad and Android.
download as PDF, TXT or read online from Scribd
See more
See less

03/20/2013

pdf

text

original

CARA CEPAT DAN MUDAH BELAJAR

TEKNIK GITAR
NINDRA SANDRIA ARDHANA 2009@
CARA CEPAT DAN MUDAH BELAJAR
TEKNIK GITAR
CARA CEPAT DAN MUDAH BELAJAR TEKNIK GITAR
Oleh Nindra Sandria Ardhana. http//www.MelodiGitar.com
HAK CIPTA DILINDUNGI UNDANG-UNDANG
Dilarang meng-copy, meniru, menyebarkan, mencetaknya dan
mereproduksi dengan cara apapun juga, tanpa izin tertulis
dari penulis.
E-book ini dipublikasikan secara resmi hanya melalui website
MelodiGitar.com dengan system reseller. Semua teks dan grafis di
dalamnya merupakan hak dari MelodiGitar.com
Anda bisa mengambil keuntungan dari E-book ini melalui program
reseller bagi hasil dari setiap member baru MelodiGitar.com atas
rekomendasi Anda. Kita bisa menjadi mitra bisnis yang saling
menguntungkan melalui program ini
PERHATIAN : Jika Anda mengetahui oknum yang dengan sengaja
meng-copy, meniru, menyebarkan, mencetaknya dan
mereproduksi dengan cara apapun juga, tanpa izin tertulis dari
penulis, mohon memberitahukan kepada kami. Kami akan
memberi Anda imbalan yang menarik.
Informasikan ke : ardhaz_devaca@yahoo.com
Nindra Sandria Ardhana
http//www.MelodiGitar.com
NINDRA SANDRIA ARDHANA 2009@
CARA CEPAT DAN MUDAH BELAJAR
TEKNIK GITAR
DAFTAR ISI
DAFTAR ISI
PENDAHULUAN
PENGERTIAN GITAR
BAGAN-BAGAN GITAR
KUNCI SUKSES BELAJAR GITAR
CARA MEMBACA TABLATURE
ALTERNATE PICKING
MACAM LATIHAN TEKNIK GITAR
1. Pemanasan Jari / Warming Up
2. Teori Dinamika teknik Scale dan chord gitar
3. Teknik Hammer-On
4. Teknik Pull-of
5. Teknik Slide
6. Teknik Bending
7. Teknik Release Bend
8. Teknik Vibrato
9. Teknik Harmonic
10. Teknik Tapping
YANG HARUS DILAKUKAN BELAJAR GITAR
NINDRA SANDRIA ARDHANA 2009@
CARA CEPAT DAN MUDAH BELAJAR
TEKNIK GITAR
PENDAHULUAN
Di E-Book ini akan membahas Macam- macam teknik permainan pada gitar,
karena pokok bahasannya mengenai teknik, maka penjelasan tentang tangga nada dan
akord hanya disampaikan sekilas.
Untuk mempelajari E-Book ini harus diperlukan keinginan,kesabaran dan
ketekunan agar dapat menguasai teknik yang diberikan dalam E-Book ini. Dan
diharapkan setelah mempelajari E-Book ini, pembaca dapat meningkatkan kemampuan
teknik permainan gitar yang nantinya akan sangat berguna dalam berbagai jenis musik
semoga sukses.
Lamongan, 12 Juli 2009
Semoga anda selalu sukses
Email : ardhaz_devaca@yahoo.com
NINDRA SANDRIA ARDHANA 2009@
CARA CEPAT DAN MUDAH BELAJAR
TEKNIK GITAR
PENGERTIAN GITAR
Gitar merupakan sebuah perangkat alat musik yang dimainkan dengan jari-jemari
dan bila dipetik akan menghasilkan bunyi melodi dan akor dalam jumlah dan variasi yang
lebih banyak dibandingkan denga alat musik lainnya. Saat ini gitar sangat popular
didunia musik dan banyak diminati seakan gitar memiliki daya tarik tersendiri bagi
semua orang,tidak sekedar untuk memiliki namun terlebih untuk mempelajari cara
memainkannya dan mendalami teknik-teknik yang ada dalam permainan gitar. Dengan
adanya E-BOOK Cara Cepat Dan Mudah Belajar Teknik Gitar ini telah hadir untuk
menjawab kebutuhan anda dalam menguasai teknik dasar bermain gitar. E-book ini
disusun secara sistematis, sehingga anda akan lebih mudah untuk mempelajarinya.
Pembahasan teori-teori gitar dalam E-Book ini dijelaskan secara lugas, dengan kata-kata
yang mudah dipahami, bahkan untuk Anda yang masih awam tentang istilah-istilah
dalam teknik gitar. Dan didalam E-book ini juga dilengkapi dengan berbagai tablature
sebagai penunjang latihan, serta daftar istilah dalam teknik gitar.
NINDRA SANDRIA ARDHANA 2009@
CARA CEPAT DAN MUDAH BELAJAR
TEKNIK GITAR
BAGAN-BAGAN GITAR
Sebelum kita mulai mempelajari dan mendalami bagaimana caranya memainkan
gitar, tentunya kita harus mengenal bagian-bagian dari tubuh sebuah gitar, karena kata
pepatah kalau tak kenal maka tak sayang, maka dalam kesempatan ini akan sedikit
dibahas mengenai Anatomi dari sebuah gitar.
Gambar dibawah ini akan menunjukkan perbedaan bagian-bagian dari sebuah gitar
akustik dan gitar listrik/elektrik.
NINDRA SANDRIA ARDHANA 2009@
CARA CEPAT DAN MUDAH BELAJAR
TEKNIK GITAR
KUNCI SUKSES BELAJAR GITAR
Sebenarnya belajar gitar tidak sulit tapi sangatlah mudah dan ada dua kunci
sukses belajar gitar yang paling penting di miliki setiap gitaris pemula. Kunci pertama
adalah kemauan yang kuat dan didasari dengan niat, orang bijak bilang “ semuanya
mudah dan gampang asal ada kemauan”. jadi kalo kemauan anda kurang, atau sekedar
iseng genjrang genjreng, yah mending jangan pernah bermimpi menjadi gitaris hebat.
Cukupkan saja menjadi gitaris iseng. Kunci sukses kedua adalah Kuasailah dahulu setiap
pola tangga nada sebelum menggunakannya dalam improvisasi. Dalam hal ini,
berusahalah menghafal semua pola dalam tiap tangga nada. Bagi pemula, mulailah
dengan latihan yang lebih mudah terlebih dahulu.
NINDRA SANDRIA ARDHANA 2009@
CARA CEPAT DAN MUDAH BELAJAR
TEKNIK GITAR
CARA MEMBACA TABLATURE
Tablatur adalah tipe notasi nada yang digunakan pada instrumen musik berdawai. Pada
tablatur gitar terlihat ada 6 garis yang menunjukkan jumlah 6 senar pada gitar. Senar
pertama (senar nada e tinggi) terletak pada garis paling atas, dan senar 6 (senar nada e
rendah) terletak pada garis paling bawah. Tuning setiap senar dituliskan pada sisi sebelah
kiri setiap garisnya. Angka yang terdapat di dalah garis menunjukkan nomer fret yang
dimainkan. Arah membacanya dari kiri ke kanan. Lihat gambar 1
Gambar 1
E----------------------------------------------------------
B----------------------------------------------------------
G----------------------------------------------------------
D-----------2----------------------------------------------
A-------2--------------------------------------------------
E---0------------------------------------------------------
Memainkan tablatur pada gambar 1, kamu akan memetik senar 6 tanpa menekan fret
dengan nada E, lalu fret 2 di senar 5 yang bernada B, kemudian memainkan nada E pada
senar 4 dengan menekan fret ke-2 di senar 4. Perbedaan tablatur dengan notasi standar
adalah pada tablatur kita tidak akan mengetahui berapa lama waktu yang diperlukan
untuk menahan nada tertentu sehingga bila kamu memainkan tablatur minimal kamu
harus mendengarkan lagu aslinya.
Gambar 2 dibawah ini menggambarkan sebuah chord E Major. Untuk memainkannya
kamu harus meletakkan jari-jarimu pada posisi yang tepat dan petik keenam senar secara
bersamaan atau dengan kata lain “digenjreng”
Gambar 2
E----0-----------------------------------------------------
B----0-----------------------------------------------------
G----1-----------------------------------------------------
D----2-----------------------------------------------------
A----2-----------------------------------------------------
E----0-----------------------------------------------------
NINDRA SANDRIA ARDHANA 2009@
CARA CEPAT DAN MUDAH BELAJAR
TEKNIK GITAR
Beberapa Istilah yang digunakan pada tablatur
1. Hammer-ons
Hammer-ons dimainkan dengan cara memetik sebuah nada kemudian dilanjutkan dengan
memukul fret lainnya (hammering on). simbul yang digunkan adalah huruf “h”. nada
yang kamu petik pertama diletakkan sebelum simbul “h” dan nada yang di “hammer”
diletakkan setelah tanda “h”. hammer ons digambarkan seperti gambar 3.
Gambar 3
E----------------------------------------------------------
B----------------------------------------------------------
G---------------------7h9----------------------------------
D----------------------------------------------------------
A----------------------------------------------------------
E----------------------------------------------------------
2. Pull-offs
Pull-off dimainkan dengan cara memetik nada dan pada saat jari masih
menekan/menahan senar dilanjutkan dengan memetik nada dengan nada lebih rendah.
Simbol yang digunakan pada tablatur menggunakan huruf “p”. dapat dilihat pada gambar
4
Gambar 4
E----------------------------------------------------------
B----------------------------------------------------------
G---------------------9p7----------------------------------
D----------------------------------------------------------
A----------------------------------------------------------
E----------------------------------------------------------
NINDRA SANDRIAARDHANA 2009@
CARA CEPAT DAN MUDAH BELAJAR
TEKNIK GITAR
3. Bending, Releasing, and Vibrato
Simbol yag digunakan pada bending adalah menggunakan huruf “b” dan sering juga
menggunakan karakter “^”. Bending dilakukan dengan menekan senar dan menarik senar
supaya terbentuk nada dengan pitch lebih tinggi. Nada yang lebih tinggi tersebut
dinamakan nada target. Nada target ini didapat agar sama dengan nada yang tertulis pada
fret setelah simbol “b”. misal 7b9, kita pertama memetik nada pada fret 7 lalu ditarik
sampai nada target yang sama dengan nada yang dipetik pada fret 9.
Releasing adalah kebalikan dari bending, setelah nada target pada bending didapat
dilakukan pelepasan tarikan senar sampai mencapai nada target release yang dituliskan
setelah simbol “r”.
Vibrato “~” terbentuk bila kamu menggiyangkan jarimu di atas fret dan membentuk suatu
nada yang “berdenyut”. Simbol “~” bisa ditemukan setelah nada yang akan menggunakan
efek vibrato
Gambar 5 Contoh untuk bending, releasing, dan vibrato.
Gambar 5
E----------------------------------------------------------
B----------------------------------------------------------
G---------------------7b9r7---7~---------------------------
D----------------------------------------------------------
A----------------------------------------------------------
E----------------------------------------------------------
NINDRA SANDRIA ARDHANA 2009@
CARA CEPAT DAN MUDAH BELAJAR
TEKNIK GITAR
5. Sliding
Simbol yang digunakan pada slide adalah simbol slash “/” atau “\”. Terdapat dua jenis slide yaitu slide up
“/” yaitu dilakukan slide ke nada target yang lebih tinggi dan silde down “\” yang merupakan kebalikan dari
slide up. Pada gambar 6 terlihat bagaimana memainkan slide pada fret 7 kemudian dilakukan slide up ke
fret 9 dan kemudian dilakukan sebaliknya ke fret 7
Gambar 6
E----------------------------------------------------------
B----------------------------------------------------------
G---------------------7/9\7--------------------------------
D----------------------------------------------------------
A----------------------------------------------------------
E----------------------------------------------------------
6. Tapping
Tapping di simbolkan dengan huruf “t” dan kamu dapat melalukan tap pada nada yang
diikuti dengan simbol “t”.
Keterangan :
1. Angka 0 berarti tanpa tekanan jari (senar dibunyikan)
2. Angka 1 berarti ditekan dengan jari telunjuk
3. Angka 2 berarti ditekan dengan jari tengah
4. Angka 3 berarti ditekan dengan jari manis
5. Angka 4 berarti ditekan dengan jari kelingking
NINDRA SANDRIA ARDHANA 2009@
CARA CEPAT DAN MUDAH BELAJAR
TEKNIK GITAR
PENGERTIAN ALTERNATE PICKING
Alternate picking adalah picking dengan pola down-up(turun naik) atau up-
down(naik turun) pada satu senar. Bisa juga lebih dari satu senar, tapi pengertian
dasarnya adalah pick pada satu senar. Teknik ini biasa dipakai para gitaris untuk picking
cepat dan juga bermanfaat untuk mengurangi cepat lelahnya tangan akibat dari
memainkan jumlah not yang banyak dengan kecepatan tinggi.
Alternate picking masuk kategori right hand techniques. Latihan awal-nya pelan dulu,
terus makin lama naikkan temponya semakin cepat, sambil tangan kiri fretting
dimanapun pada fret gitar atau los senar juga bisa. Teknik Alternate picking sangatlah
penting untuk digunakan dalam permainan gitar.
Dalam konteks teknik picking gitar elektrik ada beberapa teknik picking yang
sering dibicarakan, yaitu: downstroke, upstroke, alternate picking, sweep picking,
tremolo picking.
1. Downstroke : Cara memetik dari atas ke bawah
2. Upstroke : Cara memetik dari bawah ke atas
3. Alternate Picking : Gabungan dari downstroke,upstroke atau upstroke,downstroke.
4. Sweep picking : Gerakan sapuan menggunakan pick untuk menghasilkan suara
yang cepat dan mengalir dari atas ke bawah atau sebaliknya, biasa
dipakai untuk memainkan arpeggio.
5. Tremolo picking : satu not dimainkan cepat dan berulang-ulang.
NINDRA SANDRIA ARDHANA 2009@
CARA CEPAT DAN MUDAH BELAJAR
TEKNIK GITAR
MACAM LATIHAN TEKNIK GITAR
1. PEMANASAN JARI (Warming Up)
Agar anda mudah untuk melakukan permainan teknik gitar alangkah baiknya bila
anda melakukan pemanasan (warming up) terlebih dahulu. Pemanasan ini sangat
penting untuk mencegah otot kejang, atau tegang dan rasa sakit pada jari kanan
atau kiri anda.
Lakukan peregangan dan pelemasan pada jari kiri dan kanan dengan cara memijat
jari satu persatu. Anda juga dapat melakukan senam ringan pada tangan kanan
dan kiri. Ini sangat berguna agar peredaran darah pada tangan, khususnya jari-jari
anda menjadi lanjar. Setelah itu baru ambil gitar anda dan ikuti latihan – latihan
dibawah ini.
Berikut ini adalah latihan untuk jari tangan kri anda. Latihan ini harus dilakukan
berulang-ulang dari tempo lambat hingga cepat. Baca Tablature di bawah ini :
 Senam 1 :
Q Q Q Q Q Q Q Q Q Q Q Q
E||----------------------|----------------------|----------------------|
B||----------------------|----------------------|----------------------|
G||----------------------|----------------------|----------------------|
D||----------------------|----------------------|--1----2----3----4----|
A||----------------------|--1----2----3----4----|----------------------|
E||--1----2----3----4----|----------------------|----------------------|
NINDRA SANDRIA ARDHANA 2009@
CARA CEPAT DAN MUDAH BELAJAR
TEKNIK GITAR
Q Q Q Q Q Q Q Q Q Q Q Q
----------------------|----------------------|--1----2----3----4----|
----------------------|--1----2----3----4----|----------------------|
--1----2----3----4----|----------------------|----------------------|
----------------------|----------------------|----------------------|
----------------------|----------------------|----------------------|
----------------------|----------------------|----------------------|
Q Q Q Q Q Q Q Q Q Q Q Q
--4----3----2----1----|----------------------|----------------------|
----------------------|--4----3----2----1----|----------------------|
----------------------|----------------------|--4----3----2----1----|
----------------------|----------------------|----------------------|
----------------------|----------------------|----------------------|
----------------------|----------------------|----------------------|
Q Q Q Q Q Q Q Q Q Q Q Q
----------------------|----------------------|----------------------|-------|
----------------------|----------------------|----------------------|-------|
----------------------|----------------------|----------------------|-------|
--4----3----2----1----|----------------------|----------------------|-------|
----------------------|--4----3----2----1----|----------------------|-------|
----------------------|----------------------|--4----3----2----1----|-------|
NINDRA SANDRIA ARDHANA 2009@
CARA CEPAT DAN MUDAH BELAJAR
TEKNIK GITAR
 Senam 2
Q Q Q Q Q Q Q Q Q Q Q Q
E||----------------------|----------------------|----------------------|
B||----------------------|----------------------|----------------------|
G||----------------------|----------------------|-------2---------4----|
D||----------------------|-------2---------4----|--1---------3---------|
A||-------2---------4----|--1---------3---------|----------------------|
E||--1---------3---------|----------------------|----------------------|
Q Q Q Q Q Q Q Q Q Q Q Q
----------------------|-------2---------4----|--4---------2---------|
-------2---------4----|--1---------3---------|-------3---------1----|
--1---------3---------|----------------------|----------------------|
----------------------|----------------------|----------------------|
----------------------|----------------------|----------------------|
----------------------|----------------------|----------------------|
NINDRA SANDRIA ARDHANA 2009@
CARA CEPAT DAN MUDAH BELAJAR
TEKNIK GITAR
Q Q Q Q Q Q Q Q Q Q Q Q
----------------------|----------------------|----------------------|
--4---------2---------|----------------------|----------------------|
-------3---------1----|--4---------2---------|----------------------|
----------------------|-------3---------1----|--4---------2---------|
----------------------|----------------------|-------3---------1----|
----------------------|----------------------|----------------------|
Q Q Q Q
----------------------||
----------------------||
----------------------||
----------------------||
--4---------2---------||
-------3---------1----||
NINDRA SANDRIA ARDHANA 2009@
CARA CEPAT DAN MUDAH BELAJAR
TEKNIK GITAR
 Senam 3
Q Q Q Q Q Q Q Q Q Q Q Q
E||----------------------|----------------------|----------------------|
B||----------------------|----------------------|----------------------|
G||----------------------|----------------------|----------------------|
D||----------------------|----------------------|--1----3----2----4----|
A||----------------------|--1----3----2----4----|----------------------|
E||--1----3----2----4----|----------------------|----------------------|
Q Q Q Q Q Q Q Q Q Q Q Q
----------------------|----------------------|--1----3----2----4----|
----------------------|--1----3----2----4----|----------------------|
--1----3----2----4----|----------------------|----------------------|
----------------------|----------------------|----------------------|
----------------------|----------------------|----------------------|
----------------------|----------------------|----------------------|
NINDRA SANDRIA ARDHANA 2009@
CARA CEPAT DAN MUDAH BELAJAR
TEKNIK GITAR
Q Q Q Q Q Q Q Q Q Q Q Q
--4----2----3----1----|----------------------|----------------------|
----------------------|--4----2----3----1----|----------------------|
----------------------|----------------------|--4----2----3----1----|
----------------------|----------------------|----------------------|
----------------------|----------------------|----------------------|
----------------------|----------------------|----------------------|
Q Q Q Q Q Q Q Q Q Q Q Q
----------------------|----------------------|----------------------||
----------------------|----------------------|----------------------||
----------------------|----------------------|----------------------||
--4----2----3----1----|----------------------|----------------------||
----------------------|--4----2----3----1----|----------------------||
----------------------|----------------------|--4----2----3----1----||
NINDRA SANDRIA ARDHANA 2009@
CARA CEPAT DAN MUDAH BELAJAR
TEKNIK GITAR
 Senam 4
Q Q Q Q Q Q Q Q Q Q Q Q
E||----------------------|----------------------|----------------------|
B||----------------------|----------------------|----------------------|
G||----------------------|----------------------|----------------------|
D||----------------------|----------------------|------------3----4----|
A||------------3----4----|--1----2--------------|--1----2--------------|
E||--1----2--------------|------------3----4----|----------------------|
Q Q Q Q Q Q Q Q Q Q Q Q
----------------------|----------------------|----------------------|
----------------------|----------------------|----------------------|
----------------------|------------3----4----|--1----2--------------|
--1----2--------------|--1----2--------------|------------3----4----|
------------3----4----|----------------------|----------------------|
----------------------|----------------------|----------------------|
Q Q Q Q Q Q Q Q Q Q Q Q
----------------------|----------------------|------------3----4----|
------------3----4----|--1----2--------------|--1----2--------------|
--1----2--------------|------------3----4----|----------------------|
----------------------|----------------------|----------------------|
----------------------|----------------------|----------------------|
----------------------|----------------------|----------------------|
NINDRA SANDRIA ARDHANA 2009@
CARA CEPAT DAN MUDAH BELAJAR
TEKNIK GITAR
Q Q Q Q Q Q Q Q Q Q Q Q
--1----2--------------|--1----2--------------|------------3----4----|
------------3----4----|------------3----4----|--1----2--------------|
----------------------|----------------------|----------------------|
----------------------|----------------------|----------------------|
----------------------|----------------------|----------------------|
----------------------|----------------------|----------------------|
Q Q Q Q Q Q Q Q Q Q Q Q
----------------------|----------------------|----------------------|
--1----2--------------|------------3----4----|----------------------|
------------3----4----|--1----2--------------|--1----2--------------|
----------------------|----------------------|------------3----4----|
----------------------|----------------------|----------------------|
----------------------|----------------------|----------------------|
NINDRA SANDRIA ARDHANA 2009@
CARA CEPAT DAN MUDAH BELAJAR
TEKNIK GITAR
Q Q Q Q Q Q Q Q Q Q Q Q
----------------------|----------------------|----------------------|
----------------------|----------------------|----------------------|
------------3----4----|----------------------|----------------------|
--1----2--------------|--1----2--------------|------------3----4----|
----------------------|------------3----4----|--1----2--------------|
----------------------|----------------------|----------------------|
Q Q Q Q Q Q Q Q
----------------------|----------------------||
----------------------|----------------------||
----------------------|----------------------||
----------------------|----------------------||
--1----2--------------|------------3----4----||
------------3----4----|--1----2--------------||
NINDRA SANDRIA ARDHANA 2009@
CARA CEPAT DAN MUDAH BELAJAR
TEKNIK GITAR
 Senam 5
Q Q Q Q Q Q Q Q Q Q Q Q
E||----------------------|--1-------------------|----------------------|
B||----------------------|-------2--------------|----------------------|
G||----------------------|------------3---------|----------------------|
D||------------3----4----|-----------------4----|------------4----5----|
A||-------2--------------|----------------------|-------3--------------|
E||--1-------------------|----------------------|--2-------------------|
Q Q Q Q Q Q Q Q Q Q Q Q
--2-------------------|----------------------|--3-------------------|
-------3--------------|----------------------|-------4--------------|
------------4---------|----------------------|------------5---------|
-----------------5----|------------5----6----|-----------------6----|
----------------------|-------4--------------|----------------------|
----------------------|--3-------------------|----------------------|
Q Q Q Q Q Q Q Q Q Q Q Q
----------------------|--4-------------------|----------------------|
----------------------|-------5--------------|----------------------|
----------------------|------------6---------|----------------------|
------------6----7----|-----------------7----|------------7----8----|
-------5--------------|----------------------|-------6--------------|
--4-------------------|----------------------|--5-------------------|
NINDRA SANDRIA ARDHANA 2009@
CARA CEPAT DAN MUDAH BELAJAR
TEKNIK GITAR
Q Q Q Q Q Q Q Q Q Q Q Q
--5-------------------|----------------------|--6-------------------|
-------6--------------|----------------------|-------7--------------|
------------7---------|----------------------|------------8---------|
-----------------8----|------------8----9----|-----------------9----|
----------------------|-------7--------------|----------------------|
----------------------|--6-------------------|----------------------|
Q Q Q Q Q Q Q Q Q Q Q Q
-----------------------|--7--------------------|------------------------|
-----------------------|-------8---------------|------------------------|
-----------------------|------------9----------|------------------------|
------------9----10----|-----------------10----|------------10----11----|
-------8---------------|-----------------------|-------9----------------|
--7--------------------|-----------------------|--8---------------------|
Q Q Q Q Q Q Q Q Q Q Q Q
--8---------------------|-------------------------|--9----------------------|
-------9----------------|-------------------------|-------10----------------|
------------10----------|-------------------------|-------------11----------|
------------------11----|-------------11----12----|-------------------12----|
------------------------|-------10----------------|-------------------------|
------------------------|--9----------------------|-------------------------|
NINDRA SANDRIA ARDHANA 2009@
CARA CEPAT DAN MUDAH BELAJAR
TEKNIK GITAR
Q Q Q Q Q Q Q Q
--------------------------|--10----------------------|
--------------------------|--------11----------------|
--------------------------|--------------12----------|
--------------12----13----|--------------------13----|
--------11----------------|--------------------------|
--10----------------------|--------------------------|
Q Q Q Q Q Q Q Q
--------------------------|--11----------------------|
--------------------------|--------12----------------|
--------------------------|--------------13----------|
--------------13----14----|--------------------14----|
--------12----------------|--------------------------|
--11----------------------|--------------------------|
Q Q Q Q Q Q Q Q
--------------------------|--12----------------------|
--------------------------|--------13----------------|
--------------------------|--------------14----------|
--------------14----15----|--------------------15----|
--------13----------------|--------------------------|
--12----------------------|--------------------------|
NINDRA SANDRIA ARDHANA 2009@
CARA CEPAT DAN MUDAH BELAJAR
TEKNIK GITAR
Q Q Q Q Q Q Q Q
--12----------------------|--------------------------|
--------13----------------|--------------------------|
--------------14----------|--------------------------|
--------------------15----|--------------14----15----|
--------------------------|--------13----------------|
--------------------------|--12----------------------|
Q Q Q Q Q Q Q Q
--11----------------------|--------------------------|
--------12----------------|--------------------------|
--------------13----------|--------------------------|
--------------------14----|--------------13----14----|
--------------------------|--------12----------------|
--------------------------|--11----------------------|
Q Q Q Q Q Q Q Q Q Q Q Q
--10----------------------|--------------------------|--9----------------------|
--------11----------------|--------------------------|-------10----------------|
--------------12----------|--------------------------|-------------11----------|
--------------------13----|--------------12----13----|-------------------12----|
--------------------------|--------11----------------|-------------------------|
--------------------------|--10----------------------|-------------------------|
NINDRA SANDRIA ARDHANA 2009@
CARA CEPAT DAN MUDAH BELAJAR
TEKNIK GITAR
Q Q Q Q Q Q Q Q Q Q Q Q
-------------------------|--8---------------------|------------------------|
-------------------------|-------9----------------|------------------------|
-------------------------|------------10----------|------------------------|
-------------11----12----|------------------11----|------------10----11----|
-------10----------------|------------------------|-------9----------------|
--9----------------------|------------------------|--8---------------------|
Q Q Q Q Q Q Q Q Q Q Q Q
--7--------------------|-----------------------|--6-------------------|
-------8---------------|-----------------------|-------7--------------|
------------9----------|-----------------------|------------8---------|
-----------------10----|------------9----10----|-----------------9----|
-----------------------|-------8---------------|----------------------|
-----------------------|--7--------------------|----------------------|
Q Q Q Q Q Q Q Q Q Q Q Q
----------------------|--5-------------------|----------------------|
----------------------|-------6--------------|----------------------|
----------------------|------------7---------|----------------------|
------------8----9----|-----------------8----|------------7----8----|
-------7--------------|----------------------|-------6--------------|
--6-------------------|----------------------|--5-------------------|
NINDRA SANDRIA ARDHANA 2009@
CARA CEPAT DAN MUDAH BELAJAR
TEKNIK GITAR
Q Q Q Q Q Q Q Q Q Q Q Q
--4-------------------|----------------------|--3-------------------|
-------5--------------|----------------------|-------4--------------|
------------6---------|----------------------|------------5---------|
-----------------7----|------------6----7----|-----------------6----|
----------------------|-------5--------------|----------------------|
----------------------|--4-------------------|----------------------|
Q Q Q Q Q Q Q Q Q Q Q Q
----------------------|--2-------------------|----------------------|
----------------------|-------3--------------|----------------------|
----------------------|------------4---------|----------------------|
------------5----6----|-----------------5----|------------4----5----|
-------4--------------|----------------------|-------3--------------|
--3-------------------|----------------------|--2-------------------|
Q Q Q Q Q Q Q Q
--1-------------------|----------------------||
-------2--------------|----------------------||
------------3---------|----------------------||
-----------------4----|------------3----4----||
----------------------|-------2--------------||
----------------------|--1-------------------||
NB : Lakukan Senam Jari diatas dengan sabar dan latihan maksimal 3jam/hari
atau lebih,
NINDRA SANDRIA ARDHANA 2009@
CARA CEPAT DAN MUDAH BELAJAR
TEKNIK GITAR
2. TEORI DINAMIKA GITAR MELODI SCALE DAN CHORD DASAR
Scale adalah kumpulan dari beberapa nada yang dipolakan dalam kombinasi
wholetones dan semitones
Dari pengertian di atas, kita bisa menyimpulkan bahwa scales itu sifatnya teratur,
baku dan tidak berubah-ubah. Satu oktaf terdiri dari 12 nada, jika dimainkan disebut
chromatic scale. Dalam musik ada beberapa jenis scales yang dipakai, kita mulai
bahas dari yang pertama:
 Major Scales
Major scales mempunyai pola: wholetone-wholetone-semitone-wholetone-
wholetone-wholetone-semitone atau 1-1-1/2-1-1-1-1/2. Misalnya, major scale
dalam C adalah C-D-E-F-G-A-B-C. Bagaimana bisa mendapatkan huruf-huruf
(baca: not-not) itu. Berdasarkan penjelasan tentang tuts dan jarak masing-masing
tuts, maka kita akan hitung mulai dari C (karena didalam C major scale). Dari C
naik wholetone didapatkan D, dari D naik wholetone didapatkan E, dari E naik
semitone didapatkan F, dari F naik wholetone didapatkan G, dari G naik
wholetone didapatkan A, dari A naik wholetone didapatkan B, dari B naik
semitone didapatkan C’ dan seterusnya.
Q Q Q Q Q Q Q Q
E||----------------------|----------------------|-------||
B||----------------------|----------------------|-------||
G||----------------------|-------2(A)-4(C)-5(D)|-------||
D||------------2(A)-3(B)-|--5(D)----------------|-------||
A||--3(B)-5(D)---------|----------------------|-------||
E||----------------------|----------------------|-------||
NINDRA SANDRIA ARDHANA 2009@
CARA CEPAT DAN MUDAH BELAJAR
TEKNIK GITAR
Keterangan :
A > Index Finger
B > Middle Finger
C > Ring Finger
D > Little Finger
 Minor Scale
Setiap major scale punya sebuah relative minor. Relative minor dari C major
adalah A minor. A adalah nada ke-6 dari C major scale, maka dalam relative
minor scale selalu dimulai dari nada ke-6 dari Major scalenya.
Minor scales mempunyai tiga macam varian, yaitu:
1. Natural Minor, dimulai dengan nada ke-6 atau A, menjadi A-B-C-D-E-F-
G-A. Scale intervalnya (menggunakan # dan b): 1-2-b3-4-5-#5-b7-1′.
Scale ini cukup umum dan sering dipakai untuk lagu-lagu pop, rock,
country
Q Q Q Q Q Q Q Q
E||----------------------|----------------------||
B||----------------------|----------------------||
G||----------------------|----------------------||
D||----------------------|------------5(A)-7(C)-||
A||-----------------5(A)-|--7(C)-8(D)-----------||
E||--5(A)-7(C)-8(D)------|----------------------||
NINDRA SANDRIA ARDHANA 2009@
CARA CEPAT DAN MUDAH BELAJAR
TEKNIK GITAR
2. Harmonic Minor, sama dengan natural minor, hanya nada ke-7 dinaikkan
semitone menjadi A-B-C-D-E-F-G#-A. Scale intervalnya: 1-2-b3-4-5-b6-
7-1′. Scale ini biasanya digunakan pada lagu-lagu latin, jazz dan
tradisional.
Q Q Q Q Q Q Q Q
E||----------------------|----------------------||
B||----------------------|----------------------||
G||----------------------|----------------------||
D||----------------------|------------6(B)----7(C)----||
A||-----------------5(A)----|--7(B)----8(D)--------------||
E||--5(A)-7B)—8(D)---------|----------------------||
NINDRA SANDRIA ARDHANA 2009@
CARA CEPAT DAN MUDAH BELAJAR
TEKNIK GITAR
3. Melodic Minor, sama dengan natural minor, hanya nada ke-6 dan ke-7
dinaikkan semitone menjadi A-B-C-D-E-F#-G#-A dan dinaturalkan
menjadi A-G-F-E-D-C-B-A ketika kembali dari atas ke ke bawah. Scale
interval ketika naik: 1-2-b3-4-5-6-7-1′, ketika turun: 1-b7-b6-5-4-b3-2-1.
Q Q Q Q Q Q Q Q
E||----------------------|----------------------|-------||
B||----------------------|----------------------|-------||
G||----------------------|----------------------|-------||
D||----------------------|------------6----7----|-------||
A||-----------------5----|--7----9--------------|-------||
E||--5----7----8---------|----------------------|-------||
NINDRA SANDRIA ARDHANA 2009@
CARA CEPAT DAN MUDAH BELAJAR
TEKNIK GITAR
Pentatonic Scale mempunyai dua macam varian :
1. Major Pentatonic Scale, scale yang mengandung lima not yang
sama dengan major scale. Nada ke-4 dan ke-7 dihapus dan menjadi
C-D-E-G-A-C. Scale intervalnya: 1-2-3-5-6-1′.
Q Q Q Q Q Q Q Q
E||----------------------|----------------------|-------||
B||----------------------|----------------------|-------||
G||----------------------|-------2----3----5----|-------||
D||------------2----3----|--5-------------------|-------||
A||--3----5--------------|----------------------|-------||
E||----------------------|----------------------|-------||
2. Minor Pentatonic Scale, scale yang mengandung lima not yang
sama dengan natural minor scale, tapi nada ke-2 dan ke-6 dihapus
menjadi A-C-D-E-G-A. Scalenya intervalnya: 1-b3-4-5-b7-1′
Kedua scale ini sering dipakai dalam lagu-lagu pop, kanton, jazz,
dll.
Q Q Q Q Q Q
E||----------------------|------------|-------||
B||----------------------|------------|-------||
G||----------------------|------------|-------||
D||----------------------|--5----7----|-------||
A||------------5----7----|------------|-------||
E||--5----8--------------|------------|-------||
NINDRA SANDRIA ARDHANA 2009@
CARA CEPAT DAN MUDAH BELAJAR
TEKNIK GITAR
Blues Scale :
Scale yang mengandung enam nada yang sama dengan minor pentatonic
scale, tapi ditambahkan dengan # dari nada ke-3 dalam A blues scale atau
nada ke-4 dalam A major scale (yaitu nada D) menjadi A-C-D-#D-E-G-A.
Scale intervalnya: 1-b3-4-b5-5-b7-1′.
E||----------------------|-----------------||
B||----------------------|-----------------||
G||----------------------|-----------------||
D||----------------------|-------5----7----||
A||------------5----6----|--7--------------||
E||--5----8--------------|-----------------||
NINDRA SANDRIA ARDHANA 2009@
CARA CEPAT DAN MUDAH BELAJAR
TEKNIK GITAR
Chord merupakan kesatuan bunyi dalam musik yang tiga not atau lebih.
kombinasi jarak antar not (interval) menentukan nama chord bersangkutan. Chord yang
berisi tiga nada disebut triad / trinada. Ada dua triad yang paling sering digunakan yaitu
Major (berisi not 1, 3, 5) dan Minor (1, b3, 5) contoh chord C major hanya berisi C, E, G
sedangkan C minor berisi C, D#, E. Bila triad dasar mendapat tambahan nada maka chord
baru tersebut akan berubah nama sesuai dengan not yang ditambahkan.
Berikut Sebagian contoh Chord dan not yang terkandung didalamnya :
No Nama chord Simbol
Formula (not yang
terkandung)
Contoh
1 Major C I-III-V C-E-G
2 Major 6 C6 I-III-V-VI C-E-G-A
3 Major 6 add 9 C6 add9 I-III-V-VI-IX C-E-G-A-D
4 Major 7 CM7 I-III-V-VII C-E-G-B
5 Major 9 CM9 I-III-V-VII-IX C-E-G-B-D
6 Major 11 CM11 I-III-V-VII-IX-XI C-E-G-B-D-F
7 Major 13 CM13
I-III-V-VII-IX-XI-
XIII
C-E-G-B-D-F-A
8 Dominant 7 C7 I-III-V-bVII C-E-G-bB
9 Dominant 7b10 C7b10 I-III-V-bVII-bX C-E-G-bB-bE
10
Dominant 7 aug
5
C7+5 I-III-#V-bVII C-E-G#-bB
11
Dominant 7 sus
4
C7sus4 I-IV-V-bVII C-F-G-bB
NINDRA SANDRIA ARDHANA 2009@
CARA CEPAT DAN MUDAH BELAJAR
TEKNIK GITAR
3. TEKNIK HAMMER-ON
Hammer-on adalah teknik petik not awal(pertama) / not lebih rendah dengan cara
picking(memetik dengan pick) lalu bunyikan not lebih tinggi dengan jari lain
dengan tanpa picking lagi. Dan berikut adalah cara menuliskan hammer-on dalam
tablature. Perhatikan tablature dibawah. Tekan nada G dengan jari 1 di fret
5,kemudian pick nada tersebut. Selanjutnya tekan nada A dengan jari 3 di fret 7
hingga berbunyi (tanpa melakukan picking lagi/di pantulkan ).
Q Q
E||------------------||
B||------------------||
G||--5h----7---------||
D||------------------||
A||------------------||
E||------------------||
Bentuk 1 :
Bentuk berikut memakai minor pentatonic scale yang dimana tangga nada
tersebut dimainkan dengan hammer-on.
Q Q Q Q Q Q Q Q Q
E||------------------------|------------------------|--5----||
B||------------------------|-------------5h----8----|-------||
G||------------------------|--5h----7---------------|-------||
D||-------------5h----7----|------------------------|-------||
A||--5h----7---------------|------------------------|-------||
E||------------------------|------------------------|-------||
NINDRA SANDRIA ARDHANA 2009@
CARA CEPAT DAN MUDAH BELAJAR
TEKNIK GITAR
Bentuk 2 :
Bentuk berikut Hammer-on juga dapat diterapkan untuk merangkai lebih
dari dua nada seperti contoh dibawah. Dalam variasi yang lebih kompleks
sering diseut sebagai legato playing. Contoh ini mengggunakan C mayor
scale :
Q Q Q Q Q Q Q Q
E||------------------------|-----------------------|-------||
B||------------------------|-----------------------|-------||
G||------------------------|-------2s----4----5----|-------||
D||-------------2s----3----|--5--------------------|-------||
A||--3h----5---------------|-----------------------|-------||
E||------------------------|-----------------------|-------||
4. TEKNIK PULL-OFF
Pull-off adalah tempatkan jari bersamaan pada not-not yang akan dibunyikan.
Petik not awal, tarik jari pertama anda(yang memetik not awal) untuk
membunyikan not berikutnya dan kebalikan dari hammer-on, yakni memainkan
dua nada(atau lebih) dari nada yang lebi tinggi ke nada yang lebih rendah dengan
satu kali pick. Lihatlah tablature dibawah. Tekan nada A dengan jari 3 di fret 7.
Kemudian pick nada tersebut. Selanjutnya lepaskan jari 3 sehingga nada G yang
ditekan dengan jari 1 fret 5 berbunyi tanpa melakukan pick lagi.
Q Q
E||------------------||
B||------------------||
G||------------------||
D||--7p----5---------||
A||------------------||
E||------------------||
NINDRA SANDRIA ARDHANA 2009@
CARA CEPAT DAN MUDAH BELAJAR
TEKNIK GITAR
Bentuk 1 :
Bentuk ini mengunakan minor pentatonic scale posisi yang dimana tangga
nada tersebut dimainkan dengan pull-off.
Q Q Q Q Q Q Q Q Q Q Q
E||--8p----6---------------|------------------------|-----------------||
B||-------------8p----6----|--4---------------------|-----------------||
G||------------------------|-------5p----3----------|-----------------||
D||------------------------|------------------5h----|--3--------------||
A||------------------------|------------------------|-------6----3----||
E||------------------------|------------------------|-----------------||
NINDRA SANDRIA ARDHANA 2009@
CARA CEPAT DAN MUDAH BELAJAR
TEKNIK GITAR
Bentuk 4 :
Sama dengan Hammer-on teknik pull-off juga dapat diterapkan untuk
lebih dari dua nada seperti contoh dibawah. Penggabungan hammer-on
dengan pull-off secara lebih kompleks disebut juga sebagai legato
playing. Latihan ini menggunakan G major scale :
Q Q Q Q Q Q Q Q Q Q Q Q
E||--3p----2---------------|------------------------|-----------------------|
B||-------------5p----3----|------------------------|-----------------------|
G||------------------------|--5s----4----2----------|-----------------------|
D||------------------------|------------------5s----|--4----2---------------|
A||------------------------|------------------------|------------5s----3----|
E||------------------------|------------------------|-----------------------|
Q Q Q
-----------------|-------||
-----------------|-------||
-----------------|-------||
-----------------|-------||
--2--------------|-------||
-------5----3----|-------||
NINDRA SANDRIA ARDHANA 2009@
CARA CEPAT DAN MUDAH BELAJAR
TEKNIK GITAR

5. TEKNIK SLIDE
Slide adalah teknik memainkannya dengan petik not awal, geser jari pada not
berikutnya (lebih rendah atau tinggi). Ada dua slide disini, pertama: tanpa memetik
not berikutnya (sekali petik 2 not), kedua: dengan memetik not berikutnya (dua petik,
2 not). Perhatikan dibawah ini bentuk teknik slide :
Q Q Q Q
E||-------------------------|-------||
B||--/4----------5S----7----|-------||
G||--------\2---------------|-------||
D||-------------------------|-------||
A||-------------------------|-------||
E||-------------------------|-------||
6. TEKNIK BENDING
Bending merupakan teknik pembelokkan senar dengan memakai jari kiri sehingga
pitch menjadi naik dari nada yang telah dibunyikan. Cara untuk melakukan teknik
bending adalah dengan tekan kuat jari kiri pada fretboard kemudian naikkan jari anda
hingga nada yang dihasilkan menjadi naik. Perhatikan Tablature dibawah ini :
Q Q Q
E||-------------------------||
B||--------------8b---------||
G||--------5b---------------||
D||-------------------------||
A||--3b---------------------||
E||-------------------------||
NINDRA SANDRIA ARDHANA 2009@
CARA CEPAT DAN MUDAH BELAJAR
TEKNIK GITAR
7. TEKNIK RELEASE BEND
Teknik Release Bend merupakan kebalikan dari teknik Bending yang dimana dengan
cara petik, bending hingga nadanya naik 1/2 atau 1, kemudian balik lagi ke nada
awalnya. Perhatikan Tablature dibawah :
Q Q Q
E||-----------------------------||
B||----------------10br---------||
G||---------7br-----------------||
D||-----------------------------||
A||--8br------------------------||
E||-----------------------------||
8. TEKNIK VIBRATO
Teknik vibrato adalah teknik yang menghasilkan suara bergelombang yang dilakukan
dengan cara getarkan senar dengan bending naik turun secara cepat, bisa dengan
tangan kiri atau memakai tremolo/whammy bar. Perhatikan Tablature dibawah ini
agar lebih jelasnya :
Q Q Q
E||--------|--------|---------|-------||
B||--------|--7~----|---------|-------||
G||--5~----|--------|---------|-------||
D||--------|--------|--10~----|-------||
A||--------|--------|---------|-------||
E||--------|--------|---------|-------||
NINDRA SANDRIA ARDHANA 2009@
CARA CEPAT DAN MUDAH BELAJAR
TEKNIK GITAR
9. TEKNIK HARMONIC
Teknik ini adalah teknik yang dimana cara permainannya dengan membunyikan not
dengan menyentil(menyentuh ringan) dengan jari kiri hingga berbunyi seperti
lonceng "ting". Perhatiakan Tablature dibawah :
NH NH NH
Q Q Q
E||------------------------|-------|-------||
B||------------------------|-------|-------||
G||---------<>5------------|-------|-------||
D||--<>7-------------------|-------|-------||
A||----------------<>12----|-------|-------||
E||------------------------|-------|-------||
NINDRA SANDRIA ARDHANA 2009@
CARA CEPAT DAN MUDAH BELAJAR
TEKNIK GITAR
10. TEKNIK TAPPING
Teknik ini hampir sama dengan membentuk chord, jadi mesti tahu dulu chord
seperti apa yang mau dimainin
misalnya mau main tapping C major, ya cari not pembentuk C mayor: C-E-G,atau
bisa juga di inversi (urutannya dibolak-balik) seperti pada piano.
E-G-C
E-C-G
G-C-E
G-E-C
C-G-E
Cara permainannya adalah dengan ujung jari telunjuk atau tengah ketuklah not yang
ingin dibunyikan pada fretboard. Perhatikan Tablature dibawah :
T T T
Q Q Q
E||-----------------|-------||
B||-----------------|-------||
G||--9----7----5----|-------||
D||-----------------|-------||
A||-----------------|-------||
E||-----------------|-------||
NINDRA SANDRIA ARDHANA 2009@
CARA CEPAT DAN MUDAH BELAJAR
TEKNIK GITAR
YANG HARUS DILAKUKAN DASAR BELAJAR GITAR
Apa yang harus dilakukan? Mudah saja tak usah bingung yakni Pelajari aja dulu
scale-scale mayor dan minor, pelajari dan latih jari agar bisa bermain lebih cepat dan
bersih. Setelah itu sering-sering denger album instrument gitar. Untuk langkah awal pilih
lagu-lagu yang agak slow, sekedar untuk melenturkan dan melatih kecepatan jari. Biar
gak frustasi dalam belajar gitar melodi, kamu boleh tidak terpaku dengan satu trik saja.
Bisa juga mendengar Lagu-lagu yang kamu suka, dan mainkan melodinya dengan
feeling. Istilah umumnya memainkan melodi dengan perasaan hati anda.
Dan Jangan Lupa juga mencoba bermain atau mengeksplore chord mayor dan
minor. Dari situ pelan-pelan kenalin karakter mayor dan minor, lalu improve aja nadanya,
gak usah takut salah, salah gak masalah.. kan gak dinilai, malah lama –lama kita mengerti
dimana letak jari dan not yang salah, dan biasanya kita semakin lama akan semakin
mengerti bagaimana mengasah kemampuan bermain gitar melodi, baik dengan perasaan
maupun trik-trik yang ada.
Bermain gitar tidak hanya dapat dilakukan di sekolah musik atau minta bantuan
teman untuk mengajarkan kita. Kemajuan teknologi informasi membuat kita dapat
Belajar gitar melalui suatu program di computer yaitu dengan menggunakan software
Guitar Pro.
SEMOGA SUKSES !!!!
NINDRA SANDRIA ARDHANA 2009@

CARA CEPAT DAN MUDAH BELAJAR TEKNIK GITAR

CARA CEPAT DAN MUDAH BELAJAR TEKNIK GITAR
Oleh Nindra Sandria Ardhana. http//www.MelodiGitar.com HAK CIPTA DILINDUNGI UNDANG-UNDANG

Dilarang meng-copy, meniru, menyebarkan, mencetaknya dan mereproduksi dengan cara apapun juga, tanpa izin tertulis dari penulis.
E-book ini dipublikasikan secara resmi hanya melalui website MelodiGitar.com dengan system reseller. Semua teks dan grafis di dalamnya merupakan hak dari MelodiGitar.com Anda bisa mengambil keuntungan dari E-book ini melalui program reseller bagi hasil dari setiap member baru MelodiGitar.com atas rekomendasi Anda. Kita bisa menjadi mitra bisnis yang saling menguntungkan melalui program ini PERHATIAN : Jika Anda mengetahui oknum yang dengan sengaja meng-copy, meniru, menyebarkan, mencetaknya dan mereproduksi dengan cara apapun juga, tanpa izin tertulis dari penulis, mohon memberitahukan kepada kami. Kami akan memberi Anda imbalan yang menarik. Informasikan ke : ardhaz_devaca@yahoo.com Nindra Sandria Ardhana http//www.MelodiGitar.com

NINDRA SANDRIA ARDHANA 2009@

You're Reading a Free Preview

Download
scribd
/*********** DO NOT ALTER ANYTHING BELOW THIS LINE ! ************/ var s_code=s.t();if(s_code)document.write(s_code)//-->